ISO-10303-21;
HEADER;
/****************************************************************
 * Generated by software with PDE/Lib inside                    *
 * PDElib Version v51a, created Tue 01/15/2008                  *
 * International Technegroup Inc. (www.iti-oh.com)              *
 ****************************************************************/
FILE_DESCRIPTION((''),'2;1');
FILE_NAME('C:\\Users\\CustServ\\Desktop\\NEW CAD FOLDER\\ACCUVENT\\00 Plastic THREADED\\IPT\\AV-25-CPVC_R0.stp','2017-08-01T16:22:25',('salesdesk5'),(''),'Autodesk Inventor 2009','Autodesk Inventor 2009','');
FILE_SCHEMA(('AUTOMOTIVE_DESIGN { 1 0 10303 214 1 1 1 1 }'));
ENDSEC;
DATA;
#5=APPLICATION_CONTEXT('automotive design');
#6=APPLICATION_PROTOCOL_DEFINITION('International Standard','automotive_design',2001,#5);
#7=PRODUCT_CONTEXT('',#5,'mechanical');
#8=PRODUCT('AV-25-CPVC_R0','AV-25-CPVC_R0',$,(#7));
#9=PRODUCT_RELATED_PRODUCT_CATEGORY('part',$,(#8));
#10=PRODUCT_DEFINITION_FORMATION('',$,#8);
#11=PRODUCT_DEFINITION_CONTEXT('part definition',#5,'design');
#12=PRODUCT_DEFINITION('',$,#10,#11);
#18=(NAMED_UNIT(*)PLANE_ANGLE_UNIT()SI_UNIT($,.RADIAN.));
#19=DIMENSIONAL_EXPONENTS(0.0,0.0,0.0,0.0,0.0,0.0,0.0);
#20=PLANE_ANGLE_MEASURE_WITH_UNIT(PLANE_ANGLE_MEASURE(0.017453292500000),#18);
#24=(CONVERSION_BASED_UNIT('DEGREE',#20)NAMED_UNIT(#19)PLANE_ANGLE_UNIT());
#28=(NAMED_UNIT(*)SI_UNIT($,.STERADIAN.)SOLID_ANGLE_UNIT());
#32=(LENGTH_UNIT()NAMED_UNIT(*)SI_UNIT(.CENTI.,.METRE.));
#33=DIMENSIONAL_EXPONENTS(1.0,0.0,0.0,0.0,0.0,0.0,0.0);
#34=LENGTH_MEASURE_WITH_UNIT(LENGTH_MEASURE(2.540000000000000),#32);
#38=(CONVERSION_BASED_UNIT('INCH',#34)LENGTH_UNIT()NAMED_UNIT(#33));
#40=UNCERTAINTY_MEASURE_WITH_UNIT(LENGTH_MEASURE(0.000393700787402),#38,'DISTANCE_ACCURACY_VALUE','');
#42=(GEOMETRIC_REPRESENTATION_CONTEXT(3)GLOBAL_UNCERTAINTY_ASSIGNED_CONTEXT((#40))GLOBAL_UNIT_ASSIGNED_CONTEXT((#24,#28,#38))REPRESENTATION_CONTEXT('None','None'));
#43=AXIS2_PLACEMENT_3D('',#44,#45,#46);
#44=CARTESIAN_POINT('',(0.0,0.0,0.0));
#45=DIRECTION('',(0.0,0.0,1.0));
#46=DIRECTION('',(1.0,0.0,0.0));
#47=SHAPE_REPRESENTATION('',(#43),#42);
#48=PRODUCT_DEFINITION_SHAPE('','',#12);
#49=SHAPE_DEFINITION_REPRESENTATION(#48,#47);
#55=(NAMED_UNIT(*)PLANE_ANGLE_UNIT()SI_UNIT($,.RADIAN.));
#56=DIMENSIONAL_EXPONENTS(0.0,0.0,0.0,0.0,0.0,0.0,0.0);
#57=PLANE_ANGLE_MEASURE_WITH_UNIT(PLANE_ANGLE_MEASURE(0.017453292500000),#55);
#61=(CONVERSION_BASED_UNIT('DEGREE',#57)NAMED_UNIT(#56)PLANE_ANGLE_UNIT());
#65=(NAMED_UNIT(*)SI_UNIT($,.STERADIAN.)SOLID_ANGLE_UNIT());
#69=(LENGTH_UNIT()NAMED_UNIT(*)SI_UNIT(.MILLI.,.METRE.));
#71=UNCERTAINTY_MEASURE_WITH_UNIT(LENGTH_MEASURE(0.000001000000000),#69,'DISTANCE_ACCURACY_VALUE','');
#73=(GEOMETRIC_REPRESENTATION_CONTEXT(3)GLOBAL_UNCERTAINTY_ASSIGNED_CONTEXT((#71))GLOBAL_UNIT_ASSIGNED_CONTEXT((#61,#65,#69))REPRESENTATION_CONTEXT('','3D'));
#74=CARTESIAN_POINT('',(6.366394E-017,0.624999999999999,0.0));
#75=DIRECTION('',(0.0,-1.0,0.0));
#76=DIRECTION('',(0.0,0.0,-1.0));
#77=AXIS2_PLACEMENT_3D('',#74,#75,#76);
#78=PLANE('',#77);
#79=CARTESIAN_POINT('',(0.269999999999999,0.624999999999999,0.0));
#80=VERTEX_POINT('',#79);
#81=CARTESIAN_POINT('',(6.366394E-017,0.624999999999999,0.0));
#82=DIRECTION('',(0.0,-1.0,0.0));
#83=DIRECTION('',(1.0,0.0,0.0));
#84=AXIS2_PLACEMENT_3D('',#81,#82,#83);
#85=CIRCLE('',#84,0.269999999999999);
#86=EDGE_CURVE('',#80,#80,#85,.T.);
#87=ORIENTED_EDGE('',*,*,#86,.T.);
#88=EDGE_LOOP('',(#87));
#89=FACE_OUTER_BOUND('',#88,.T.);
#90=ADVANCED_FACE('',(#89),#78,.T.);
#91=CARTESIAN_POINT('',(4.883972E-016,1.675000000000000,1.931150E-016));
#92=DIRECTION('',(0.0,-1.0,0.0));
#93=DIRECTION('',(0.0,0.0,-1.0));
#94=AXIS2_PLACEMENT_3D('',#91,#92,#93);
#95=PLANE('',#94);
#96=CARTESIAN_POINT('',(0.098371557179434,1.675000000000000,0.251441915237085));
#97=VERTEX_POINT('',#96);
#98=CARTESIAN_POINT('',(4.883972E-016,1.675000000000000,1.931150E-016));
#99=DIRECTION('',(-8.474364E-017,-1.0,-2.166084E-016));
#100=DIRECTION('',(0.364339100664567,-2.325955E-016,0.931266352729945));
#101=AXIS2_PLACEMENT_3D('',#98,#99,#100);
#102=CIRCLE('',#101,0.270000000000000);
#103=EDGE_CURVE('',#97,#97,#102,.T.);
#104=ORIENTED_EDGE('',*,*,#103,.F.);
#105=EDGE_LOOP('',(#104));
#106=FACE_OUTER_BOUND('',#105,.T.);
#107=ADVANCED_FACE('',(#106),#95,.F.);
#108=CARTESIAN_POINT('',(6.366394E-017,0.625000000000000,0.0));
#109=DIRECTION('',(3.800832E-017,-1.0,0.0));
#110=DIRECTION('',(1.0,0.0,0.0));
#111=AXIS2_PLACEMENT_3D('',#108,#109,#110);
#112=CYLINDRICAL_SURFACE('',#111,0.725000000000000);
#113=CARTESIAN_POINT('',(0.264145847981812,2.275000000000000,0.675168105729210));
#114=VERTEX_POINT('',#113);
#115=CARTESIAN_POINT('',(6.320312E-016,2.275000000000000,2.622906E-016));
#116=DIRECTION('',(7.101510E-017,1.000000000000000,1.815176E-016));
#117=DIRECTION('',(-0.364339100664567,1.949148E-016,-0.931266352729945));
#118=AXIS2_PLACEMENT_3D('',#115,#116,#117);
#119=CIRCLE('',#118,0.725000000000000);
#120=EDGE_CURVE('',#114,#114,#119,.T.);
#121=ORIENTED_EDGE('',*,*,#120,.F.);
#122=EDGE_LOOP('',(#121));
#123=FACE_OUTER_BOUND('',#122,.T.);
#124=CARTESIAN_POINT('',(0.725000000000000,0.025000000000000,0.0));
#125=VERTEX_POINT('',#124);
#126=CARTESIAN_POINT('',(8.646893E-017,0.025000000000000,0.0));
#127=DIRECTION('',(0.0,-1.0,0.0));
#128=DIRECTION('',(-1.0,0.0,0.0));
#129=AXIS2_PLACEMENT_3D('',#126,#127,#128);
#130=CIRCLE('',#129,0.725000000000000);
#131=EDGE_CURVE('',#125,#125,#130,.T.);
#132=ORIENTED_EDGE('',*,*,#131,.F.);
#133=EDGE_LOOP('',(#132));
#134=FACE_BOUND('',#133,.T.);
#135=ADVANCED_FACE('',(#123,#134),#112,.T.);
#136=CARTESIAN_POINT('',(8.646893E-017,0.025000000000000,0.0));
#137=DIRECTION('',(3.800832E-017,-1.0,0.0));
#138=DIRECTION('',(0.0,0.0,-1.0));
#139=AXIS2_PLACEMENT_3D('',#136,#137,#138);
#140=TOROIDAL_SURFACE('',#139,0.700000000000000,0.025000000000000);
#141=ORIENTED_EDGE('',*,*,#131,.T.);
#142=EDGE_LOOP('',(#141));
#143=FACE_OUTER_BOUND('',#142,.T.);
#144=CARTESIAN_POINT('',(0.700000000000000,4.846061E-017,-1.714506E-016));
#145=VERTEX_POINT('',#144);
#146=CARTESIAN_POINT('',(8.741914E-017,2.185478E-017,0.0));
#147=DIRECTION('',(0.0,1.0,0.0));
#148=DIRECTION('',(-1.0,0.0,0.0));
#149=AXIS2_PLACEMENT_3D('',#146,#147,#148);
#150=CIRCLE('',#149,0.700000000000000);
#151=EDGE_CURVE('',#145,#145,#150,.T.);
#152=ORIENTED_EDGE('',*,*,#151,.T.);
#153=EDGE_LOOP('',(#152));
#154=FACE_BOUND('',#153,.T.);
#155=ADVANCED_FACE('',(#143,#154),#140,.T.);
#156=CARTESIAN_POINT('',(7.554154E-017,0.312499999999999,0.0));
#157=DIRECTION('',(3.800832E-017,-1.0,0.0));
#158=DIRECTION('',(1.0,0.0,0.0));
#159=AXIS2_PLACEMENT_3D('',#156,#157,#158);
#160=CYLINDRICAL_SURFACE('',#159,0.270000000000000);
#161=ORIENTED_EDGE('',*,*,#86,.F.);
#162=EDGE_LOOP('',(#161));
#163=FACE_OUTER_BOUND('',#162,.T.);
#164=CARTESIAN_POINT('',(0.270000000000000,0.050000000000000,-3.306546E-017));
#165=VERTEX_POINT('',#164);
#166=CARTESIAN_POINT('',(8.551872E-017,0.050000000000000,0.0));
#167=DIRECTION('',(0.0,1.0,0.0));
#168=DIRECTION('',(-1.0,0.0,0.0));
#169=AXIS2_PLACEMENT_3D('',#166,#167,#168);
#170=CIRCLE('',#169,0.270000000000000);
#171=EDGE_CURVE('',#165,#165,#170,.T.);
#172=ORIENTED_EDGE('',*,*,#171,.F.);
#173=EDGE_LOOP('',(#172));
#174=FACE_BOUND('',#173,.T.);
#175=ADVANCED_FACE('',(#163,#174),#160,.F.);
#176=CARTESIAN_POINT('',(0.497500000000000,3.922100E-017,0.0));
#177=DIRECTION('',(0.0,-1.0,0.0));
#178=DIRECTION('',(0.0,0.0,-1.0));
#179=AXIS2_PLACEMENT_3D('',#176,#177,#178);
#180=PLANE('',#179);
#181=ORIENTED_EDGE('',*,*,#151,.F.);
#182=EDGE_LOOP('',(#181));
#183=FACE_OUTER_BOUND('',#182,.T.);
#184=CARTESIAN_POINT('',(0.320000000000000,3.401745E-017,3.918870E-017));
#185=VERTEX_POINT('',#184);
#186=CARTESIAN_POINT('',(8.741914E-017,2.185478E-017,0.0));
#187=DIRECTION('',(0.0,-1.0,0.0));
#188=DIRECTION('',(-1.0,0.0,0.0));
#189=AXIS2_PLACEMENT_3D('',#186,#187,#188);
#190=CIRCLE('',#189,0.320000000000000);
#191=EDGE_CURVE('',#185,#185,#190,.T.);
#192=ORIENTED_EDGE('',*,*,#191,.F.);
#193=EDGE_LOOP('',(#192));
#194=FACE_BOUND('',#193,.T.);
#195=ADVANCED_FACE('',(#183,#194),#180,.T.);
#196=CARTESIAN_POINT('',(8.646893E-017,0.025000000000000,0.0));
#197=DIRECTION('',(3.800832E-017,-1.0,0.0));
#198=DIRECTION('',(-1.0,0.0,0.0));
#199=AXIS2_PLACEMENT_3D('',#196,#197,#198);
#200=CONICAL_SURFACE('',#199,0.295000000000000,45.000000000000185);
#201=ORIENTED_EDGE('',*,*,#191,.T.);
#202=EDGE_LOOP('',(#201));
#203=FACE_OUTER_BOUND('',#202,.T.);
#204=ORIENTED_EDGE('',*,*,#171,.T.);
#205=EDGE_LOOP('',(#204));
#206=FACE_BOUND('',#205,.T.);
#207=ADVANCED_FACE('',(#203,#206),#200,.F.);
#208=CARTESIAN_POINT('',(6.320312E-016,2.275000000000000,2.622906E-016));
#209=DIRECTION('',(-2.393899E-016,-1.0,-1.152926E-016));
#210=DIRECTION('',(0.931266352729945,-1.809302E-016,-0.364339100664567));
#211=AXIS2_PLACEMENT_3D('',#208,#209,#210);
#212=TOROIDAL_SURFACE('',#211,0.700000000000000,0.025000000000000);
#213=CARTESIAN_POINT('',(0.255037370465198,2.300000000000000,0.651886446910962));
#214=VERTEX_POINT('',#213);
#215=CARTESIAN_POINT('',(6.380159E-016,2.300000000000000,2.651729E-016));
#216=DIRECTION('',(-7.089572E-017,-1.0,-1.812125E-016));
#217=DIRECTION('',(-0.364339100664567,1.945872E-016,-0.931266352729945));
#218=AXIS2_PLACEMENT_3D('',#215,#216,#217);
#219=CIRCLE('',#218,0.700000000000000);
#220=EDGE_CURVE('',#214,#214,#219,.T.);
#221=ORIENTED_EDGE('',*,*,#220,.T.);
#222=EDGE_LOOP('',(#221));
#223=FACE_OUTER_BOUND('',#222,.T.);
#224=ORIENTED_EDGE('',*,*,#120,.T.);
#225=EDGE_LOOP('',(#224));
#226=FACE_BOUND('',#225,.T.);
#227=ADVANCED_FACE('',(#223,#226),#212,.T.);
#228=CARTESIAN_POINT('',(5.632066E-016,1.987500000000000,2.291440E-016));
#229=DIRECTION('',(-2.393899E-016,-1.0,-1.152926E-016));
#230=DIRECTION('',(0.364339100664567,-2.325955E-016,0.931266352729945));
#231=AXIS2_PLACEMENT_3D('',#228,#229,#230);
#232=CYLINDRICAL_SURFACE('',#231,0.270000000000000);
#233=ORIENTED_EDGE('',*,*,#103,.T.);
#234=EDGE_LOOP('',(#233));
#235=FACE_OUTER_BOUND('',#234,.T.);
#236=CARTESIAN_POINT('',(0.098371557179434,2.250000000000000,0.251441915237085));
#237=VERTEX_POINT('',#236);
#238=CARTESIAN_POINT('',(6.260464E-016,2.250000000000000,2.594083E-016));
#239=DIRECTION('',(-8.474364E-017,-1.000000000000000,-2.166084E-016));
#240=DIRECTION('',(-0.364339100664567,2.325955E-016,-0.931266352729945));
#241=AXIS2_PLACEMENT_3D('',#238,#239,#240);
#242=CIRCLE('',#241,0.270000000000000);
#243=EDGE_CURVE('',#237,#237,#242,.T.);
#244=ORIENTED_EDGE('',*,*,#243,.F.);
#245=EDGE_LOOP('',(#244));
#246=FACE_BOUND('',#245,.T.);
#247=ADVANCED_FACE('',(#235,#246),#232,.F.);
#248=CARTESIAN_POINT('',(0.181258702580623,2.300000000000000,0.463305010483148));
#249=DIRECTION('',(0.0,1.0,0.0));
#250=DIRECTION('',(-0.931266352729945,0.0,0.364339100664567));
#251=AXIS2_PLACEMENT_3D('',#248,#249,#250);
#252=PLANE('',#251);
#253=ORIENTED_EDGE('',*,*,#220,.F.);
#254=EDGE_LOOP('',(#253));
#255=FACE_OUTER_BOUND('',#254,.T.);
#256=CARTESIAN_POINT('',(0.116588512212662,2.300000000000000,0.298005232873583));
#257=VERTEX_POINT('',#256);
#258=CARTESIAN_POINT('',(6.380159E-016,2.300000000000000,2.651729E-016));
#259=DIRECTION('',(7.089572E-017,1.0,1.812125E-016));
#260=DIRECTION('',(-0.364339100664567,1.945872E-016,-0.931266352729945));
#261=AXIS2_PLACEMENT_3D('',#258,#259,#260);
#262=CIRCLE('',#261,0.320000000000000);
#263=EDGE_CURVE('',#257,#257,#262,.T.);
#264=ORIENTED_EDGE('',*,*,#263,.F.);
#265=EDGE_LOOP('',(#264));
#266=FACE_BOUND('',#265,.T.);
#267=ADVANCED_FACE('',(#255,#266),#252,.T.);
#268=CARTESIAN_POINT('',(6.320312E-016,2.275000000000000,2.622906E-016));
#269=DIRECTION('',(2.393899E-016,1.0,1.152926E-016));
#270=DIRECTION('',(-0.364339100664567,2.119808E-016,-0.931266352729945));
#271=AXIS2_PLACEMENT_3D('',#268,#269,#270);
#272=CONICAL_SURFACE('',#271,0.295000000000000,45.000000000000071);
#273=ORIENTED_EDGE('',*,*,#243,.T.);
#274=EDGE_LOOP('',(#273));
#275=FACE_OUTER_BOUND('',#274,.T.);
#276=ORIENTED_EDGE('',*,*,#263,.T.);
#277=EDGE_LOOP('',(#276));
#278=FACE_BOUND('',#277,.T.);
#279=ADVANCED_FACE('',(#275,#278),#272,.F.);
#280=CLOSED_SHELL('',(#90,#107,#135,#155,#175,#195,#207,#227,#247,#267,#279));
#281=CARTESIAN_POINT('',(0.213593797764603,1.250000000000000,0.545954899287930));
#282=DIRECTION('',(0.0,-1.0,0.0));
#283=DIRECTION('',(0.931266352729945,0.0,-0.364339100664567));
#284=AXIS2_PLACEMENT_3D('',#281,#282,#283);
#285=PLANE('',#284);
#286=CARTESIAN_POINT('',(0.587500000000000,1.250000000000000,0.0));
#287=VERTEX_POINT('',#286);
#288=CARTESIAN_POINT('',(3.990874E-017,1.250000000000000,0.0));
#289=DIRECTION('',(0.0,-1.0,0.0));
#290=DIRECTION('',(1.0,0.0,0.0));
#291=AXIS2_PLACEMENT_3D('',#288,#289,#290);
#292=CIRCLE('',#291,0.587500000000000);
#293=EDGE_CURVE('',#287,#287,#292,.T.);
#294=ORIENTED_EDGE('',*,*,#293,.T.);
#295=EDGE_LOOP('',(#294));
#296=FACE_OUTER_BOUND('',#295,.T.);
#297=CARTESIAN_POINT('',(0.213138373888772,1.250000000000000,0.544790816347018));
#298=VERTEX_POINT('',#297);
#299=CARTESIAN_POINT('',(3.866565E-016,1.250000000000000,1.441157E-016));
#300=DIRECTION('',(-8.474364E-017,-1.0,-2.166084E-016));
#301=DIRECTION('',(0.364339100664567,-2.325955E-016,0.931266352729945));
#302=AXIS2_PLACEMENT_3D('',#299,#300,#301);
#303=CIRCLE('',#302,0.585000000000000);
#304=EDGE_CURVE('',#298,#298,#303,.T.);
#305=ORIENTED_EDGE('',*,*,#304,.F.);
#306=EDGE_LOOP('',(#305));
#307=FACE_BOUND('',#306,.T.);
#308=ADVANCED_FACE('',(#296,#307),#285,.T.);
#309=CARTESIAN_POINT('',(3.268090E-016,1.000000000000000,1.152926E-016));
#310=DIRECTION('',(2.393899E-016,1.0,1.152926E-016));
#311=DIRECTION('',(0.364339100664567,-2.325955E-016,0.931266352729945));
#312=AXIS2_PLACEMENT_3D('',#309,#310,#311);
#313=CONICAL_SURFACE('',#312,0.582500000000000,0.572938697683475);
#314=CARTESIAN_POINT('',(0.211316678385449,0.750000000000000,0.540134484583368));
#315=VERTEX_POINT('',#314);
#316=CARTESIAN_POINT('',(2.669616E-016,0.750000000000000,8.646942E-017));
#317=DIRECTION('',(-8.474364E-017,-1.0,-2.166084E-016));
#318=DIRECTION('',(0.364339100664567,-2.325955E-016,0.931266352729945));
#319=AXIS2_PLACEMENT_3D('',#316,#317,#318);
#320=CIRCLE('',#319,0.580000000000000);
#321=EDGE_CURVE('',#315,#315,#320,.T.);
#322=ORIENTED_EDGE('',*,*,#321,.F.);
#323=EDGE_LOOP('',(#322));
#324=FACE_OUTER_BOUND('',#323,.T.);
#325=ORIENTED_EDGE('',*,*,#304,.T.);
#326=EDGE_LOOP('',(#325));
#327=FACE_BOUND('',#326,.T.);
#328=ADVANCED_FACE('',(#324,#327),#313,.T.);
#329=CARTESIAN_POINT('',(0.568750000000000,0.750000000000000,0.0));
#330=DIRECTION('',(0.0,1.0,0.0));
#331=DIRECTION('',(0.0,0.0,1.0));
#332=AXIS2_PLACEMENT_3D('',#329,#330,#331);
#333=PLANE('',#332);
#334=CARTESIAN_POINT('',(0.587500000000000,0.750000000000000,0.0));
#335=VERTEX_POINT('',#334);
#336=CARTESIAN_POINT('',(5.891290E-017,0.750000000000000,0.0));
#337=DIRECTION('',(0.0,-1.0,0.0));
#338=DIRECTION('',(1.0,0.0,0.0));
#339=AXIS2_PLACEMENT_3D('',#336,#337,#338);
#340=CIRCLE('',#339,0.587500000000000);
#341=EDGE_CURVE('',#335,#335,#340,.T.);
#342=ORIENTED_EDGE('',*,*,#341,.F.);
#343=EDGE_LOOP('',(#342));
#344=FACE_OUTER_BOUND('',#343,.T.);
#345=ORIENTED_EDGE('',*,*,#321,.T.);
#346=EDGE_LOOP('',(#345));
#347=FACE_BOUND('',#346,.T.);
#348=ADVANCED_FACE('',(#344,#347),#333,.T.);
#349=CARTESIAN_POINT('',(4.941082E-017,1.000000000000000,0.0));
#350=DIRECTION('',(3.800832E-017,-1.0,0.0));
#351=DIRECTION('',(1.0,0.0,0.0));
#352=AXIS2_PLACEMENT_3D('',#349,#350,#351);
#353=CYLINDRICAL_SURFACE('',#352,0.587500000000000);
#354=ORIENTED_EDGE('',*,*,#293,.F.);
#355=EDGE_LOOP('',(#354));
#356=FACE_OUTER_BOUND('',#355,.T.);
#357=ORIENTED_EDGE('',*,*,#341,.T.);
#358=EDGE_LOOP('',(#357));
#359=FACE_BOUND('',#358,.T.);
#360=ADVANCED_FACE('',(#356,#359),#353,.F.);
#361=CLOSED_SHELL('',(#308,#328,#348,#360));
#362=ORIENTED_CLOSED_SHELL('',*,#361,.F.);
#363=BREP_WITH_VOIDS('',#280,(#362));
#364=COLOUR_RGB('',0.611765027046204,0.725489974021912,0.745097994804382);
#365=DRAUGHTING_PRE_DEFINED_CURVE_FONT('continuous');
#366=CURVE_STYLE('',#365,POSITIVE_LENGTH_MEASURE(0.100000000000000),#364);
#367=FILL_AREA_STYLE_COLOUR('',#364);
#368=FILL_AREA_STYLE('',(#367));
#369=SURFACE_STYLE_FILL_AREA(#368);
#370=SURFACE_SIDE_STYLE('',(#369));
#371=SURFACE_STYLE_USAGE(.BOTH.,#370);
#372=PRESENTATION_STYLE_ASSIGNMENT((#366,#371));
#373=STYLED_ITEM('',(#372),#107);
#374=STYLED_ITEM('',(#372),#135);
#375=STYLED_ITEM('',(#372),#155);
#376=STYLED_ITEM('',(#372),#175);
#377=STYLED_ITEM('',(#372),#195);
#378=STYLED_ITEM('',(#372),#207);
#379=STYLED_ITEM('',(#372),#227);
#380=STYLED_ITEM('',(#372),#247);
#381=STYLED_ITEM('',(#372),#267);
#382=STYLED_ITEM('',(#372),#279);
#383=STYLED_ITEM('',(#372),#308);
#384=STYLED_ITEM('',(#372),#328);
#385=STYLED_ITEM('',(#372),#348);
#386=STYLED_ITEM('',(#372),#360);
#387=MECHANICAL_DESIGN_GEOMETRIC_PRESENTATION_REPRESENTATION('',(#373,#374,#375,#376,#377,#378,#379,#380,#381,#382,#383,#384,#385,#386,#395),#73);
#388=COLOUR_RGB('Default',0.752941012382507,0.752941012382507,0.752941012382507);
#389=FILL_AREA_STYLE_COLOUR('Default',#388);
#390=FILL_AREA_STYLE('Default',(#389));
#391=SURFACE_STYLE_FILL_AREA(#390);
#392=SURFACE_SIDE_STYLE('Default',(#391));
#393=SURFACE_STYLE_USAGE(.BOTH.,#392);
#394=PRESENTATION_STYLE_ASSIGNMENT((#393));
#395=STYLED_ITEM('',(#394),#363);
#396=ADVANCED_BREP_SHAPE_REPRESENTATION('ABSR',(#363),#42);
#397=SHAPE_REPRESENTATION_RELATIONSHIP('SRR','None',#396,#47);
ENDSEC;
END-ISO-10303-21;
