ISO-10303-21;
HEADER;
/****************************************************************
 * Generated by software with PDE/Lib inside                    *
 * PDElib Version v51a, created Tue 01/15/2008                  *
 * International Technegroup Inc. (www.iti-oh.com)              *
 ****************************************************************/
FILE_DESCRIPTION((''),'2;1');
FILE_NAME('C:\\Users\\CustServ\\Desktop\\NEW CAD FOLDER\\CALIBRATION CYLINDERS\\Accudraw PP\\00 Poly THREADED\\STEP FILES\\AC#3-100_R0.stp','2016-11-09T16:17:29',('salesdesk5'),(''),'Autodesk Inventor 2009','Autodesk Inventor 2009','');
FILE_SCHEMA(('AUTOMOTIVE_DESIGN { 1 0 10303 214 1 1 1 1 }'));
ENDSEC;
DATA;
#5=APPLICATION_CONTEXT('automotive design');
#6=APPLICATION_PROTOCOL_DEFINITION('International Standard','automotive_design',2001,#5);
#7=PRODUCT_CONTEXT('',#5,'mechanical');
#8=PRODUCT('AC#3-100_R0','AC#3-100_R0',$,(#7));
#9=PRODUCT_RELATED_PRODUCT_CATEGORY('part',$,(#8));
#10=PRODUCT_DEFINITION_FORMATION('',$,#8);
#11=PRODUCT_DEFINITION_CONTEXT('part definition',#5,'design');
#12=PRODUCT_DEFINITION('',$,#10,#11);
#18=(NAMED_UNIT(*)PLANE_ANGLE_UNIT()SI_UNIT($,.RADIAN.));
#19=DIMENSIONAL_EXPONENTS(0.0,0.0,0.0,0.0,0.0,0.0,0.0);
#20=PLANE_ANGLE_MEASURE_WITH_UNIT(PLANE_ANGLE_MEASURE(0.017453292500000),#18);
#24=(CONVERSION_BASED_UNIT('DEGREE',#20)NAMED_UNIT(#19)PLANE_ANGLE_UNIT());
#28=(NAMED_UNIT(*)SI_UNIT($,.STERADIAN.)SOLID_ANGLE_UNIT());
#32=(LENGTH_UNIT()NAMED_UNIT(*)SI_UNIT(.CENTI.,.METRE.));
#33=DIMENSIONAL_EXPONENTS(1.0,0.0,0.0,0.0,0.0,0.0,0.0);
#34=LENGTH_MEASURE_WITH_UNIT(LENGTH_MEASURE(2.540000000000000),#32);
#38=(CONVERSION_BASED_UNIT('INCH',#34)LENGTH_UNIT()NAMED_UNIT(#33));
#40=UNCERTAINTY_MEASURE_WITH_UNIT(LENGTH_MEASURE(0.000393700787402),#38,'DISTANCE_ACCURACY_VALUE','');
#42=(GEOMETRIC_REPRESENTATION_CONTEXT(3)GLOBAL_UNCERTAINTY_ASSIGNED_CONTEXT((#40))GLOBAL_UNIT_ASSIGNED_CONTEXT((#24,#28,#38))REPRESENTATION_CONTEXT('None','None'));
#43=AXIS2_PLACEMENT_3D('',#44,#45,#46);
#44=CARTESIAN_POINT('',(0.0,0.0,0.0));
#45=DIRECTION('',(0.0,0.0,1.0));
#46=DIRECTION('',(1.0,0.0,0.0));
#47=SHAPE_REPRESENTATION('',(#43,#292,#458,#725),#42);
#48=PRODUCT_DEFINITION_SHAPE('','',#12);
#49=SHAPE_DEFINITION_REPRESENTATION(#48,#47);
#50=APPLICATION_CONTEXT('automotive design');
#51=APPLICATION_PROTOCOL_DEFINITION('International Standard','automotive_design',2001,#50);
#52=PRODUCT_CONTEXT('',#50,'mechanical');
#53=PRODUCT('AC-2B-100-S','AC-2B-100-S',$,(#52));
#54=PRODUCT_RELATED_PRODUCT_CATEGORY('part',$,(#53));
#55=PRODUCT_DEFINITION_FORMATION('',$,#53);
#56=PRODUCT_DEFINITION_CONTEXT('part definition',#50,'design');
#57=PRODUCT_DEFINITION('',$,#55,#56);
#63=(NAMED_UNIT(*)PLANE_ANGLE_UNIT()SI_UNIT($,.RADIAN.));
#64=DIMENSIONAL_EXPONENTS(0.0,0.0,0.0,0.0,0.0,0.0,0.0);
#65=PLANE_ANGLE_MEASURE_WITH_UNIT(PLANE_ANGLE_MEASURE(0.017453292500000),#63);
#69=(CONVERSION_BASED_UNIT('DEGREE',#65)NAMED_UNIT(#64)PLANE_ANGLE_UNIT());
#73=(NAMED_UNIT(*)SI_UNIT($,.STERADIAN.)SOLID_ANGLE_UNIT());
#77=(LENGTH_UNIT()NAMED_UNIT(*)SI_UNIT(.CENTI.,.METRE.));
#78=DIMENSIONAL_EXPONENTS(1.0,0.0,0.0,0.0,0.0,0.0,0.0);
#79=LENGTH_MEASURE_WITH_UNIT(LENGTH_MEASURE(2.540000000000000),#77);
#83=(CONVERSION_BASED_UNIT('INCH',#79)LENGTH_UNIT()NAMED_UNIT(#78));
#85=UNCERTAINTY_MEASURE_WITH_UNIT(LENGTH_MEASURE(0.000393700787402),#83,'DISTANCE_ACCURACY_VALUE','');
#87=(GEOMETRIC_REPRESENTATION_CONTEXT(3)GLOBAL_UNCERTAINTY_ASSIGNED_CONTEXT((#85))GLOBAL_UNIT_ASSIGNED_CONTEXT((#69,#73,#83))REPRESENTATION_CONTEXT('None','None'));
#88=AXIS2_PLACEMENT_3D('',#89,#90,#91);
#89=CARTESIAN_POINT('',(0.0,0.0,0.0));
#90=DIRECTION('',(0.0,0.0,1.0));
#91=DIRECTION('',(1.0,0.0,0.0));
#92=SHAPE_REPRESENTATION('',(#88),#87);
#93=PRODUCT_DEFINITION_SHAPE('','',#57);
#94=SHAPE_DEFINITION_REPRESENTATION(#93,#92);
#100=(NAMED_UNIT(*)PLANE_ANGLE_UNIT()SI_UNIT($,.RADIAN.));
#101=DIMENSIONAL_EXPONENTS(0.0,0.0,0.0,0.0,0.0,0.0,0.0);
#102=PLANE_ANGLE_MEASURE_WITH_UNIT(PLANE_ANGLE_MEASURE(0.017453292500000),#100);
#106=(CONVERSION_BASED_UNIT('DEGREE',#102)NAMED_UNIT(#101)PLANE_ANGLE_UNIT());
#110=(NAMED_UNIT(*)SI_UNIT($,.STERADIAN.)SOLID_ANGLE_UNIT());
#114=(LENGTH_UNIT()NAMED_UNIT(*)SI_UNIT(.MILLI.,.METRE.));
#116=UNCERTAINTY_MEASURE_WITH_UNIT(LENGTH_MEASURE(0.000001000000000),#114,'DISTANCE_ACCURACY_VALUE','');
#118=(GEOMETRIC_REPRESENTATION_CONTEXT(3)GLOBAL_UNCERTAINTY_ASSIGNED_CONTEXT((#116))GLOBAL_UNIT_ASSIGNED_CONTEXT((#106,#110,#114))REPRESENTATION_CONTEXT('','3D'));
#119=CARTESIAN_POINT('',(0.382000000000000,0.577000000000000,0.0));
#120=DIRECTION('',(0.0,-1.0,0.0));
#121=DIRECTION('',(0.0,0.0,-1.0));
#122=AXIS2_PLACEMENT_3D('',#119,#120,#121);
#123=PLANE('',#122);
#124=CARTESIAN_POINT('',(0.420000000000000,0.577000000000000,0.0));
#125=VERTEX_POINT('',#124);
#126=CARTESIAN_POINT('',(0.0,0.577000000000000,0.0));
#127=DIRECTION('',(0.0,-1.0,0.0));
#128=DIRECTION('',(1.0,0.0,0.0));
#129=AXIS2_PLACEMENT_3D('',#126,#127,#128);
#130=CIRCLE('',#129,0.420000000000000);
#131=EDGE_CURVE('',#125,#125,#130,.T.);
#132=ORIENTED_EDGE('',*,*,#131,.T.);
#133=EDGE_LOOP('',(#132));
#134=FACE_OUTER_BOUND('',#133,.T.);
#135=CARTESIAN_POINT('',(0.344000000000000,0.577000000000000,0.0));
#136=VERTEX_POINT('',#135);
#137=CARTESIAN_POINT('',(0.0,0.577000000000000,0.0));
#138=DIRECTION('',(0.0,-1.0,0.0));
#139=DIRECTION('',(1.0,0.0,0.0));
#140=AXIS2_PLACEMENT_3D('',#137,#138,#139);
#141=CIRCLE('',#140,0.344000000000000);
#142=EDGE_CURVE('',#136,#136,#141,.T.);
#143=ORIENTED_EDGE('',*,*,#142,.F.);
#144=EDGE_LOOP('',(#143));
#145=FACE_BOUND('',#144,.T.);
#146=ADVANCED_FACE('',(#134,#145),#123,.T.);
#147=CARTESIAN_POINT('',(0.0,0.663500000000000,0.0));
#148=DIRECTION('',(0.0,-1.0,0.0));
#149=DIRECTION('',(1.0,0.0,0.0));
#150=AXIS2_PLACEMENT_3D('',#147,#148,#149);
#151=CYLINDRICAL_SURFACE('',#150,0.344000000000000);
#152=CARTESIAN_POINT('',(0.344000000000000,0.750000000000000,0.0));
#153=VERTEX_POINT('',#152);
#154=CARTESIAN_POINT('',(0.0,0.750000000000000,0.0));
#155=DIRECTION('',(0.0,-1.0,0.0));
#156=DIRECTION('',(1.0,0.0,0.0));
#157=AXIS2_PLACEMENT_3D('',#154,#155,#156);
#158=CIRCLE('',#157,0.344000000000000);
#159=EDGE_CURVE('',#153,#153,#158,.T.);
#160=ORIENTED_EDGE('',*,*,#159,.F.);
#161=EDGE_LOOP('',(#160));
#162=FACE_OUTER_BOUND('',#161,.T.);
#163=ORIENTED_EDGE('',*,*,#142,.T.);
#164=EDGE_LOOP('',(#163));
#165=FACE_BOUND('',#164,.T.);
#166=ADVANCED_FACE('',(#162,#165),#151,.F.);
#167=CARTESIAN_POINT('',(0.424500000000000,0.750000000000000,0.0));
#168=DIRECTION('',(0.0,1.0,0.0));
#169=DIRECTION('',(0.0,0.0,1.0));
#170=AXIS2_PLACEMENT_3D('',#167,#168,#169);
#171=PLANE('',#170);
#172=CARTESIAN_POINT('',(0.505000000000000,0.750000000000000,0.0));
#173=VERTEX_POINT('',#172);
#174=CARTESIAN_POINT('',(0.0,0.750000000000000,0.0));
#175=DIRECTION('',(0.0,-1.0,0.0));
#176=DIRECTION('',(1.0,0.0,0.0));
#177=AXIS2_PLACEMENT_3D('',#174,#175,#176);
#178=CIRCLE('',#177,0.505000000000000);
#179=EDGE_CURVE('',#173,#173,#178,.T.);
#180=ORIENTED_EDGE('',*,*,#179,.F.);
#181=EDGE_LOOP('',(#180));
#182=FACE_OUTER_BOUND('',#181,.T.);
#183=ORIENTED_EDGE('',*,*,#159,.T.);
#184=EDGE_LOOP('',(#183));
#185=FACE_BOUND('',#184,.T.);
#186=ADVANCED_FACE('',(#182,#185),#171,.T.);
#187=CARTESIAN_POINT('',(0.0,0.645000000000000,0.0));
#188=DIRECTION('',(0.0,-1.0,0.0));
#189=DIRECTION('',(1.0,0.0,0.0));
#190=AXIS2_PLACEMENT_3D('',#187,#188,#189);
#191=CYLINDRICAL_SURFACE('',#190,0.505000000000000);
#192=CARTESIAN_POINT('',(0.505000000000000,0.540000000000000,0.0));
#193=VERTEX_POINT('',#192);
#194=CARTESIAN_POINT('',(0.0,0.540000000000000,0.0));
#195=DIRECTION('',(0.0,-1.0,0.0));
#196=DIRECTION('',(1.0,0.0,0.0));
#197=AXIS2_PLACEMENT_3D('',#194,#195,#196);
#198=CIRCLE('',#197,0.505000000000000);
#199=EDGE_CURVE('',#193,#193,#198,.T.);
#200=ORIENTED_EDGE('',*,*,#199,.F.);
#201=EDGE_LOOP('',(#200));
#202=FACE_OUTER_BOUND('',#201,.T.);
#203=ORIENTED_EDGE('',*,*,#179,.T.);
#204=EDGE_LOOP('',(#203));
#205=FACE_BOUND('',#204,.T.);
#206=ADVANCED_FACE('',(#202,#205),#191,.T.);
#207=CARTESIAN_POINT('',(0.597500000000000,0.540000000000000,0.0));
#208=DIRECTION('',(0.0,1.0,0.0));
#209=DIRECTION('',(0.0,0.0,1.0));
#210=AXIS2_PLACEMENT_3D('',#207,#208,#209);
#211=PLANE('',#210);
#212=CARTESIAN_POINT('',(0.690000000000000,0.540000000000000,0.0));
#213=VERTEX_POINT('',#212);
#214=CARTESIAN_POINT('',(0.0,0.540000000000000,0.0));
#215=DIRECTION('',(0.0,-1.0,0.0));
#216=DIRECTION('',(1.0,0.0,0.0));
#217=AXIS2_PLACEMENT_3D('',#214,#215,#216);
#218=CIRCLE('',#217,0.690000000000000);
#219=EDGE_CURVE('',#213,#213,#218,.T.);
#220=ORIENTED_EDGE('',*,*,#219,.F.);
#221=EDGE_LOOP('',(#220));
#222=FACE_OUTER_BOUND('',#221,.T.);
#223=ORIENTED_EDGE('',*,*,#199,.T.);
#224=EDGE_LOOP('',(#223));
#225=FACE_BOUND('',#224,.T.);
#226=ADVANCED_FACE('',(#222,#225),#211,.T.);
#227=CARTESIAN_POINT('',(0.0,0.270000000000000,0.0));
#228=DIRECTION('',(0.0,-1.0,0.0));
#229=DIRECTION('',(1.0,0.0,0.0));
#230=AXIS2_PLACEMENT_3D('',#227,#228,#229);
#231=CYLINDRICAL_SURFACE('',#230,0.690000000000000);
#232=CARTESIAN_POINT('',(0.690000000000000,0.0,0.0));
#233=VERTEX_POINT('',#232);
#234=CARTESIAN_POINT('',(0.0,0.0,0.0));
#235=DIRECTION('',(0.0,-1.0,0.0));
#236=DIRECTION('',(1.0,0.0,0.0));
#237=AXIS2_PLACEMENT_3D('',#234,#235,#236);
#238=CIRCLE('',#237,0.690000000000000);
#239=EDGE_CURVE('',#233,#233,#238,.T.);
#240=ORIENTED_EDGE('',*,*,#239,.F.);
#241=EDGE_LOOP('',(#240));
#242=FACE_OUTER_BOUND('',#241,.T.);
#243=ORIENTED_EDGE('',*,*,#219,.T.);
#244=EDGE_LOOP('',(#243));
#245=FACE_BOUND('',#244,.T.);
#246=ADVANCED_FACE('',(#242,#245),#231,.T.);
#247=CARTESIAN_POINT('',(0.555000000000000,0.0,0.0));
#248=DIRECTION('',(0.0,-1.0,0.0));
#249=DIRECTION('',(0.0,0.0,-1.0));
#250=AXIS2_PLACEMENT_3D('',#247,#248,#249);
#251=PLANE('',#250);
#252=ORIENTED_EDGE('',*,*,#239,.T.);
#253=EDGE_LOOP('',(#252));
#254=FACE_OUTER_BOUND('',#253,.T.);
#255=CARTESIAN_POINT('',(0.420000000000000,0.0,0.0));
#256=VERTEX_POINT('',#255);
#257=CARTESIAN_POINT('',(0.0,0.0,0.0));
#258=DIRECTION('',(0.0,-1.0,0.0));
#259=DIRECTION('',(1.0,0.0,0.0));
#260=AXIS2_PLACEMENT_3D('',#257,#258,#259);
#261=CIRCLE('',#260,0.420000000000000);
#262=EDGE_CURVE('',#256,#256,#261,.T.);
#263=ORIENTED_EDGE('',*,*,#262,.F.);
#264=EDGE_LOOP('',(#263));
#265=FACE_BOUND('',#264,.T.);
#266=ADVANCED_FACE('',(#254,#265),#251,.T.);
#267=CARTESIAN_POINT('',(0.0,0.288500000000000,0.0));
#268=DIRECTION('',(0.0,-1.0,0.0));
#269=DIRECTION('',(1.0,0.0,0.0));
#270=AXIS2_PLACEMENT_3D('',#267,#268,#269);
#271=CYLINDRICAL_SURFACE('',#270,0.420000000000000);
#272=ORIENTED_EDGE('',*,*,#131,.F.);
#273=EDGE_LOOP('',(#272));
#274=FACE_OUTER_BOUND('',#273,.T.);
#275=ORIENTED_EDGE('',*,*,#262,.T.);
#276=EDGE_LOOP('',(#275));
#277=FACE_BOUND('',#276,.T.);
#278=ADVANCED_FACE('',(#274,#277),#271,.F.);
#279=CLOSED_SHELL('',(#146,#166,#186,#206,#226,#246,#266,#278));
#280=MANIFOLD_SOLID_BREP('',#279);
#281=COLOUR_RGB('Default',0.752941012382507,0.752941012382507,0.752941012382507);
#282=FILL_AREA_STYLE_COLOUR('Default',#281);
#283=FILL_AREA_STYLE('Default',(#282));
#284=SURFACE_STYLE_FILL_AREA(#283);
#285=SURFACE_SIDE_STYLE('Default',(#284));
#286=SURFACE_STYLE_USAGE(.BOTH.,#285);
#287=PRESENTATION_STYLE_ASSIGNMENT((#286));
#288=STYLED_ITEM('',(#287),#280);
#289=MECHANICAL_DESIGN_GEOMETRIC_PRESENTATION_REPRESENTATION('',(#288,#455,#722),#42);
#290=ADVANCED_BREP_SHAPE_REPRESENTATION('ABSR',(#280),#87);
#291=SHAPE_REPRESENTATION_RELATIONSHIP('SRR','None',#290,#92);
#292=AXIS2_PLACEMENT_3D('',#293,#294,#295);
#293=CARTESIAN_POINT('',(1.802725E-016,2.165000000000000,2.520446E-016));
#294=DIRECTION('',(0.0,-9.860761E-032,-1.0));
#295=DIRECTION('',(-1.0,1.110223E-016,8.309482E-017));
#296=NEXT_ASSEMBLY_USAGE_OCCURRENCE('AC-2B-100-S:1','AC-2B-100-S:1','AC-2B-100-S:1',#12,#57,'AC-2B-100-S:1');
#297=PRODUCT_DEFINITION_SHAPE('AC-2B-100-S:1','AC-2B-100-S:1',#296);
#298=ITEM_DEFINED_TRANSFORMATION('AC-2B-100-S:1','AC-2B-100-S:1',#88,#292);
#302=(REPRESENTATION_RELATIONSHIP('AC-2B-100-S:1','AC-2B-100-S:1',#92,#47)REPRESENTATION_RELATIONSHIP_WITH_TRANSFORMATION(#298)SHAPE_REPRESENTATION_RELATIONSHIP());
#303=CONTEXT_DEPENDENT_SHAPE_REPRESENTATION(#302,#297);
#304=APPLICATION_CONTEXT('automotive design');
#305=APPLICATION_PROTOCOL_DEFINITION('International Standard','automotive_design',2001,#304);
#306=PRODUCT_CONTEXT('',#304,'mechanical');
#307=PRODUCT('AC-100-TUBE','AC-100-TUBE',$,(#306));
#308=PRODUCT_RELATED_PRODUCT_CATEGORY('part',$,(#307));
#309=PRODUCT_DEFINITION_FORMATION('',$,#307);
#310=PRODUCT_DEFINITION_CONTEXT('part definition',#304,'design');
#311=PRODUCT_DEFINITION('',$,#309,#310);
#317=(NAMED_UNIT(*)PLANE_ANGLE_UNIT()SI_UNIT($,.RADIAN.));
#318=DIMENSIONAL_EXPONENTS(0.0,0.0,0.0,0.0,0.0,0.0,0.0);
#319=PLANE_ANGLE_MEASURE_WITH_UNIT(PLANE_ANGLE_MEASURE(0.017453292500000),#317);
#323=(CONVERSION_BASED_UNIT('DEGREE',#319)NAMED_UNIT(#318)PLANE_ANGLE_UNIT());
#327=(NAMED_UNIT(*)SI_UNIT($,.STERADIAN.)SOLID_ANGLE_UNIT());
#331=(LENGTH_UNIT()NAMED_UNIT(*)SI_UNIT(.CENTI.,.METRE.));
#332=DIMENSIONAL_EXPONENTS(1.0,0.0,0.0,0.0,0.0,0.0,0.0);
#333=LENGTH_MEASURE_WITH_UNIT(LENGTH_MEASURE(2.540000000000000),#331);
#337=(CONVERSION_BASED_UNIT('INCH',#333)LENGTH_UNIT()NAMED_UNIT(#332));
#339=UNCERTAINTY_MEASURE_WITH_UNIT(LENGTH_MEASURE(0.000393700787402),#337,'DISTANCE_ACCURACY_VALUE','');
#341=(GEOMETRIC_REPRESENTATION_CONTEXT(3)GLOBAL_UNCERTAINTY_ASSIGNED_CONTEXT((#339))GLOBAL_UNIT_ASSIGNED_CONTEXT((#323,#327,#337))REPRESENTATION_CONTEXT('None','None'));
#342=AXIS2_PLACEMENT_3D('',#343,#344,#345);
#343=CARTESIAN_POINT('',(0.0,0.0,0.0));
#344=DIRECTION('',(0.0,0.0,1.0));
#345=DIRECTION('',(1.0,0.0,0.0));
#346=SHAPE_REPRESENTATION('',(#342),#341);
#347=PRODUCT_DEFINITION_SHAPE('','',#311);
#348=SHAPE_DEFINITION_REPRESENTATION(#347,#346);
#354=(NAMED_UNIT(*)PLANE_ANGLE_UNIT()SI_UNIT($,.RADIAN.));
#355=DIMENSIONAL_EXPONENTS(0.0,0.0,0.0,0.0,0.0,0.0,0.0);
#356=PLANE_ANGLE_MEASURE_WITH_UNIT(PLANE_ANGLE_MEASURE(0.017453292500000),#354);
#360=(CONVERSION_BASED_UNIT('DEGREE',#356)NAMED_UNIT(#355)PLANE_ANGLE_UNIT());
#364=(NAMED_UNIT(*)SI_UNIT($,.STERADIAN.)SOLID_ANGLE_UNIT());
#368=(LENGTH_UNIT()NAMED_UNIT(*)SI_UNIT(.MILLI.,.METRE.));
#370=UNCERTAINTY_MEASURE_WITH_UNIT(LENGTH_MEASURE(0.000001000000000),#368,'DISTANCE_ACCURACY_VALUE','');
#372=(GEOMETRIC_REPRESENTATION_CONTEXT(3)GLOBAL_UNCERTAINTY_ASSIGNED_CONTEXT((#370))GLOBAL_UNIT_ASSIGNED_CONTEXT((#360,#364,#368))REPRESENTATION_CONTEXT('','3D'));
#373=CARTESIAN_POINT('',(0.532499999999999,8.170000000000000,0.0));
#374=DIRECTION('',(0.0,1.0,0.0));
#375=DIRECTION('',(0.0,0.0,1.0));
#376=AXIS2_PLACEMENT_3D('',#373,#374,#375);
#377=PLANE('',#376);
#378=CARTESIAN_POINT('',(0.562499999999999,8.170000000000000,0.0));
#379=VERTEX_POINT('',#378);
#380=CARTESIAN_POINT('',(0.0,8.170000000000000,0.0));
#381=DIRECTION('',(0.0,-1.0,0.0));
#382=DIRECTION('',(1.0,0.0,0.0));
#383=AXIS2_PLACEMENT_3D('',#380,#381,#382);
#384=CIRCLE('',#383,0.562499999999999);
#385=EDGE_CURVE('',#379,#379,#384,.T.);
#386=ORIENTED_EDGE('',*,*,#385,.F.);
#387=EDGE_LOOP('',(#386));
#388=FACE_OUTER_BOUND('',#387,.T.);
#389=CARTESIAN_POINT('',(0.502500000000000,8.170000000000000,0.0));
#390=VERTEX_POINT('',#389);
#391=CARTESIAN_POINT('',(0.0,8.170000000000000,0.0));
#392=DIRECTION('',(0.0,-1.0,0.0));
#393=DIRECTION('',(1.0,0.0,0.0));
#394=AXIS2_PLACEMENT_3D('',#391,#392,#393);
#395=CIRCLE('',#394,0.502500000000000);
#396=EDGE_CURVE('',#390,#390,#395,.T.);
#397=ORIENTED_EDGE('',*,*,#396,.T.);
#398=EDGE_LOOP('',(#397));
#399=FACE_BOUND('',#398,.T.);
#400=ADVANCED_FACE('',(#388,#399),#377,.T.);
#401=CARTESIAN_POINT('',(0.0,4.085000000000000,0.0));
#402=DIRECTION('',(0.0,-1.0,0.0));
#403=DIRECTION('',(1.0,0.0,0.0));
#404=AXIS2_PLACEMENT_3D('',#401,#402,#403);
#405=CYLINDRICAL_SURFACE('',#404,0.562499999999999);
#406=CARTESIAN_POINT('',(0.562500000000000,2.051985E-017,0.0));
#407=VERTEX_POINT('',#406);
#408=CARTESIAN_POINT('',(0.0,2.048886E-017,0.0));
#409=DIRECTION('',(0.0,-1.0,0.0));
#410=DIRECTION('',(1.0,0.0,0.0));
#411=AXIS2_PLACEMENT_3D('',#408,#409,#410);
#412=CIRCLE('',#411,0.562500000000000);
#413=EDGE_CURVE('',#407,#407,#412,.T.);
#414=ORIENTED_EDGE('',*,*,#413,.F.);
#415=EDGE_LOOP('',(#414));
#416=FACE_OUTER_BOUND('',#415,.T.);
#417=ORIENTED_EDGE('',*,*,#385,.T.);
#418=EDGE_LOOP('',(#417));
#419=FACE_BOUND('',#418,.T.);
#420=ADVANCED_FACE('',(#416,#419),#405,.T.);
#421=CARTESIAN_POINT('',(0.532500000000000,1.025992E-017,0.0));
#422=DIRECTION('',(0.0,-1.0,0.0));
#423=DIRECTION('',(0.0,0.0,-1.0));
#424=AXIS2_PLACEMENT_3D('',#421,#422,#423);
#425=PLANE('',#424);
#426=ORIENTED_EDGE('',*,*,#413,.T.);
#427=EDGE_LOOP('',(#426));
#428=FACE_OUTER_BOUND('',#427,.T.);
#429=CARTESIAN_POINT('',(0.502500000000000,0.0,0.0));
#430=VERTEX_POINT('',#429);
#431=CARTESIAN_POINT('',(0.0,0.0,0.0));
#432=DIRECTION('',(0.0,-1.0,0.0));
#433=DIRECTION('',(1.0,0.0,0.0));
#434=AXIS2_PLACEMENT_3D('',#431,#432,#433);
#435=CIRCLE('',#434,0.502500000000000);
#436=EDGE_CURVE('',#430,#430,#435,.T.);
#437=ORIENTED_EDGE('',*,*,#436,.F.);
#438=EDGE_LOOP('',(#437));
#439=FACE_BOUND('',#438,.T.);
#440=ADVANCED_FACE('',(#428,#439),#425,.T.);
#441=CARTESIAN_POINT('',(0.0,4.085000000000000,0.0));
#442=DIRECTION('',(0.0,-1.0,0.0));
#443=DIRECTION('',(1.0,0.0,0.0));
#444=AXIS2_PLACEMENT_3D('',#441,#442,#443);
#445=CYLINDRICAL_SURFACE('',#444,0.502500000000000);
#446=ORIENTED_EDGE('',*,*,#396,.F.);
#447=EDGE_LOOP('',(#446));
#448=FACE_OUTER_BOUND('',#447,.T.);
#449=ORIENTED_EDGE('',*,*,#436,.T.);
#450=EDGE_LOOP('',(#449));
#451=FACE_BOUND('',#450,.T.);
#452=ADVANCED_FACE('',(#448,#451),#445,.F.);
#453=CLOSED_SHELL('',(#400,#420,#440,#452));
#454=MANIFOLD_SOLID_BREP('',#453);
#455=STYLED_ITEM('',(#287),#454);
#456=ADVANCED_BREP_SHAPE_REPRESENTATION('ABSR',(#454),#341);
#457=SHAPE_REPRESENTATION_RELATIONSHIP('SRR','None',#456,#346);
#458=AXIS2_PLACEMENT_3D('',#459,#460,#461);
#459=CARTESIAN_POINT('',(2.252365E-016,2.705000000000001,1.487240E-017));
#460=DIRECTION('',(1.281899E-030,-4.160105E-046,1.0));
#461=DIRECTION('',(1.000000000000002,-4.007108E-016,9.720002E-063));
#462=NEXT_ASSEMBLY_USAGE_OCCURRENCE('AC-100-TUBE:1','AC-100-TUBE:1','AC-100-TUBE:1',#12,#311,'AC-100-TUBE:1');
#463=PRODUCT_DEFINITION_SHAPE('AC-100-TUBE:1','AC-100-TUBE:1',#462);
#464=ITEM_DEFINED_TRANSFORMATION('AC-100-TUBE:1','AC-100-TUBE:1',#342,#458);
#468=(REPRESENTATION_RELATIONSHIP('AC-100-TUBE:1','AC-100-TUBE:1',#346,#47)REPRESENTATION_RELATIONSHIP_WITH_TRANSFORMATION(#464)SHAPE_REPRESENTATION_RELATIONSHIP());
#469=CONTEXT_DEPENDENT_SHAPE_REPRESENTATION(#468,#463);
#470=APPLICATION_CONTEXT('automotive design');
#471=APPLICATION_PROTOCOL_DEFINITION('International Standard','automotive_design',2001,#470);
#472=PRODUCT_CONTEXT('',#470,'mechanical');
#473=PRODUCT('AC-DC-100_R1','AC-DC-100_R1',$,(#472));
#474=PRODUCT_RELATED_PRODUCT_CATEGORY('part',$,(#473));
#475=PRODUCT_DEFINITION_FORMATION('',$,#473);
#476=PRODUCT_DEFINITION_CONTEXT('part definition',#470,'design');
#477=PRODUCT_DEFINITION('',$,#475,#476);
#483=(NAMED_UNIT(*)PLANE_ANGLE_UNIT()SI_UNIT($,.RADIAN.));
#484=DIMENSIONAL_EXPONENTS(0.0,0.0,0.0,0.0,0.0,0.0,0.0);
#485=PLANE_ANGLE_MEASURE_WITH_UNIT(PLANE_ANGLE_MEASURE(0.017453292500000),#483);
#489=(CONVERSION_BASED_UNIT('DEGREE',#485)NAMED_UNIT(#484)PLANE_ANGLE_UNIT());
#493=(NAMED_UNIT(*)SI_UNIT($,.STERADIAN.)SOLID_ANGLE_UNIT());
#497=(LENGTH_UNIT()NAMED_UNIT(*)SI_UNIT(.CENTI.,.METRE.));
#498=DIMENSIONAL_EXPONENTS(1.0,0.0,0.0,0.0,0.0,0.0,0.0);
#499=LENGTH_MEASURE_WITH_UNIT(LENGTH_MEASURE(2.540000000000000),#497);
#503=(CONVERSION_BASED_UNIT('INCH',#499)LENGTH_UNIT()NAMED_UNIT(#498));
#505=UNCERTAINTY_MEASURE_WITH_UNIT(LENGTH_MEASURE(0.000393700787402),#503,'DISTANCE_ACCURACY_VALUE','');
#507=(GEOMETRIC_REPRESENTATION_CONTEXT(3)GLOBAL_UNCERTAINTY_ASSIGNED_CONTEXT((#505))GLOBAL_UNIT_ASSIGNED_CONTEXT((#489,#493,#503))REPRESENTATION_CONTEXT('None','None'));
#508=AXIS2_PLACEMENT_3D('',#509,#510,#511);
#509=CARTESIAN_POINT('',(0.0,0.0,0.0));
#510=DIRECTION('',(0.0,0.0,1.0));
#511=DIRECTION('',(1.0,0.0,0.0));
#512=SHAPE_REPRESENTATION('',(#508),#507);
#513=PRODUCT_DEFINITION_SHAPE('','',#477);
#514=SHAPE_DEFINITION_REPRESENTATION(#513,#512);
#520=(NAMED_UNIT(*)PLANE_ANGLE_UNIT()SI_UNIT($,.RADIAN.));
#521=DIMENSIONAL_EXPONENTS(0.0,0.0,0.0,0.0,0.0,0.0,0.0);
#522=PLANE_ANGLE_MEASURE_WITH_UNIT(PLANE_ANGLE_MEASURE(0.017453292500000),#520);
#526=(CONVERSION_BASED_UNIT('DEGREE',#522)NAMED_UNIT(#521)PLANE_ANGLE_UNIT());
#530=(NAMED_UNIT(*)SI_UNIT($,.STERADIAN.)SOLID_ANGLE_UNIT());
#534=(LENGTH_UNIT()NAMED_UNIT(*)SI_UNIT(.MILLI.,.METRE.));
#536=UNCERTAINTY_MEASURE_WITH_UNIT(LENGTH_MEASURE(0.000001000000000),#534,'DISTANCE_ACCURACY_VALUE','');
#538=(GEOMETRIC_REPRESENTATION_CONTEXT(3)GLOBAL_UNCERTAINTY_ASSIGNED_CONTEXT((#536))GLOBAL_UNIT_ASSIGNED_CONTEXT((#526,#530,#534))REPRESENTATION_CONTEXT('','3D'));
#539=CARTESIAN_POINT('',(-0.062500000000000,0.750000000000002,7.654042E-018));
#540=CARTESIAN_POINT('',(-0.062500000000000,0.0,7.654042E-018));
#541=CARTESIAN_POINT('',(-0.062500000000000,0.750000000000002,0.062500000000000));
#542=CARTESIAN_POINT('',(-0.062500000000000,0.0,0.062500000000000));
#543=CARTESIAN_POINT('',(7.654042E-018,0.750000000000002,0.062500000000000));
#544=CARTESIAN_POINT('',(7.654042E-018,0.0,0.062500000000000));
#545=CARTESIAN_POINT('',(0.062500000000000,0.750000000000002,0.062500000000000));
#546=CARTESIAN_POINT('',(0.062500000000000,0.0,0.062500000000000));
#547=CARTESIAN_POINT('',(0.062500000000000,0.750000000000002,-7.654042E-018));
#548=CARTESIAN_POINT('',(0.062500000000000,0.0,-7.654042E-018));
#549=CARTESIAN_POINT('',(0.062500000000000,0.750000000000002,-0.062500000000000));
#550=CARTESIAN_POINT('',(0.062500000000000,0.0,-0.062500000000000));
#551=CARTESIAN_POINT('',(-7.654042E-018,0.750000000000002,-0.062500000000000));
#552=CARTESIAN_POINT('',(-7.654042E-018,0.0,-0.062500000000000));
#553=CARTESIAN_POINT('',(-0.062500000000000,0.750000000000002,-0.062500000000000));
#554=CARTESIAN_POINT('',(-0.062500000000000,0.0,-0.062500000000000));
#555=CARTESIAN_POINT('',(-0.062500000000000,0.750000000000002,7.654042E-018));
#556=CARTESIAN_POINT('',(-0.062500000000000,0.0,7.654042E-018));
#564=(BOUNDED_SURFACE()B_SPLINE_SURFACE(1,2,((#539,#541,#543,#545,#547,#549,#551,#553,#555),(#540,#542,#544,#546,#548,#550,#552,#554,#556)),.UNSPECIFIED.,.F.,.T.,.U.)B_SPLINE_SURFACE_WITH_KNOTS((2,2),(3,2,2,2,3),(-6.0,6.000000000000027),(0.0,0.098174770424681,0.196349540849362,0.294524311274043,0.392699081698724),.UNSPECIFIED.)GEOMETRIC_REPRESENTATION_ITEM()RATIONAL_B_SPLINE_SURFACE(((1.0,0.707106781186548,1.0,0.707106781186548,1.0,0.707106781186548,1.0,0.707106781186548,1.0),(1.0,0.707106781186548,1.0,0.707106781186548,1.0,0.707106781186548,1.0,0.707106781186548,1.0)))REPRESENTATION_ITEM('')SURFACE());
#565=CARTESIAN_POINT('',(0.062500000000000,0.750000000000002,0.0));
#566=VERTEX_POINT('',#565);
#567=CARTESIAN_POINT('',(0.0,0.750000000000002,0.0));
#568=DIRECTION('',(0.0,-1.0,0.0));
#569=DIRECTION('',(1.0,0.0,0.0));
#570=AXIS2_PLACEMENT_3D('',#567,#568,#569);
#571=CIRCLE('',#570,0.062500000000000);
#572=EDGE_CURVE('',#566,#566,#571,.T.);
#573=ORIENTED_EDGE('',*,*,#572,.F.);
#574=EDGE_LOOP('',(#573));
#575=FACE_OUTER_BOUND('',#574,.T.);
#576=CARTESIAN_POINT('',(0.062500000000000,1.660964E-015,0.0));
#577=VERTEX_POINT('',#576);
#578=CARTESIAN_POINT('',(0.0,0.0,0.0));
#579=DIRECTION('',(0.0,1.0,0.0));
#580=DIRECTION('',(1.0,0.0,0.0));
#581=AXIS2_PLACEMENT_3D('',#578,#579,#580);
#582=CIRCLE('',#581,0.062500000000000);
#583=EDGE_CURVE('',#577,#577,#582,.T.);
#584=ORIENTED_EDGE('',*,*,#583,.F.);
#585=EDGE_LOOP('',(#584));
#586=FACE_BOUND('',#585,.T.);
#587=ADVANCED_FACE('',(#575,#586),#564,.F.);
#588=CARTESIAN_POINT('',(0.362500000000000,0.750000000000002,0.0));
#589=DIRECTION('',(0.0,1.0,0.0));
#590=DIRECTION('',(0.0,0.0,1.0));
#591=AXIS2_PLACEMENT_3D('',#588,#589,#590);
#592=PLANE('',#591);
#593=CARTESIAN_POINT('',(0.725000000000000,0.750000000000000,0.0));
#594=VERTEX_POINT('',#593);
#595=CARTESIAN_POINT('',(0.0,0.750000000000000,0.0));
#596=DIRECTION('',(0.0,-1.0,0.0));
#597=DIRECTION('',(1.0,0.0,0.0));
#598=AXIS2_PLACEMENT_3D('',#595,#596,#597);
#599=CIRCLE('',#598,0.725000000000000);
#600=EDGE_CURVE('',#594,#594,#599,.T.);
#601=ORIENTED_EDGE('',*,*,#600,.F.);
#602=EDGE_LOOP('',(#601));
#603=FACE_OUTER_BOUND('',#602,.T.);
#604=ORIENTED_EDGE('',*,*,#572,.T.);
#605=EDGE_LOOP('',(#604));
#606=FACE_BOUND('',#605,.T.);
#607=ADVANCED_FACE('',(#603,#606),#592,.T.);
#608=CARTESIAN_POINT('',(0.0,0.375000000000000,0.0));
#609=DIRECTION('',(0.0,-1.0,0.0));
#610=DIRECTION('',(1.0,0.0,0.0));
#611=AXIS2_PLACEMENT_3D('',#608,#609,#610);
#612=CYLINDRICAL_SURFACE('',#611,0.725000000000000);
#613=CARTESIAN_POINT('',(0.725000000000000,0.0,0.0));
#614=VERTEX_POINT('',#613);
#615=CARTESIAN_POINT('',(0.0,0.0,0.0));
#616=DIRECTION('',(0.0,-1.0,0.0));
#617=DIRECTION('',(1.0,0.0,0.0));
#618=AXIS2_PLACEMENT_3D('',#615,#616,#617);
#619=CIRCLE('',#618,0.725000000000000);
#620=EDGE_CURVE('',#614,#614,#619,.T.);
#621=ORIENTED_EDGE('',*,*,#620,.F.);
#622=EDGE_LOOP('',(#621));
#623=FACE_OUTER_BOUND('',#622,.T.);
#624=ORIENTED_EDGE('',*,*,#600,.T.);
#625=EDGE_LOOP('',(#624));
#626=FACE_BOUND('',#625,.T.);
#627=ADVANCED_FACE('',(#623,#626),#612,.T.);
#628=CARTESIAN_POINT('',(0.662500000000000,0.0,0.0));
#629=DIRECTION('',(0.0,-1.0,0.0));
#630=DIRECTION('',(0.0,0.0,-1.0));
#631=AXIS2_PLACEMENT_3D('',#628,#629,#630);
#632=PLANE('',#631);
#633=ORIENTED_EDGE('',*,*,#620,.T.);
#634=EDGE_LOOP('',(#633));
#635=FACE_OUTER_BOUND('',#634,.T.);
#636=CARTESIAN_POINT('',(0.600000000000000,0.0,0.0));
#637=VERTEX_POINT('',#636);
#638=CARTESIAN_POINT('',(0.0,0.0,0.0));
#639=DIRECTION('',(0.0,-1.0,0.0));
#640=DIRECTION('',(1.0,0.0,0.0));
#641=AXIS2_PLACEMENT_3D('',#638,#639,#640);
#642=CIRCLE('',#641,0.600000000000000);
#643=EDGE_CURVE('',#637,#637,#642,.T.);
#644=ORIENTED_EDGE('',*,*,#643,.F.);
#645=EDGE_LOOP('',(#644));
#646=FACE_BOUND('',#645,.T.);
#647=ADVANCED_FACE('',(#635,#646),#632,.T.);
#648=CARTESIAN_POINT('',(0.0,0.187500000000000,0.0));
#649=DIRECTION('',(0.0,-1.0,0.0));
#650=DIRECTION('',(1.0,0.0,0.0));
#651=AXIS2_PLACEMENT_3D('',#648,#649,#650);
#652=CYLINDRICAL_SURFACE('',#651,0.600000000000000);
#653=CARTESIAN_POINT('',(0.600000000000000,0.375000000000000,0.0));
#654=VERTEX_POINT('',#653);
#655=CARTESIAN_POINT('',(0.0,0.375000000000000,0.0));
#656=DIRECTION('',(0.0,-1.0,0.0));
#657=DIRECTION('',(1.0,0.0,0.0));
#658=AXIS2_PLACEMENT_3D('',#655,#656,#657);
#659=CIRCLE('',#658,0.600000000000000);
#660=EDGE_CURVE('',#654,#654,#659,.T.);
#661=ORIENTED_EDGE('',*,*,#660,.F.);
#662=EDGE_LOOP('',(#661));
#663=FACE_OUTER_BOUND('',#662,.T.);
#664=ORIENTED_EDGE('',*,*,#643,.T.);
#665=EDGE_LOOP('',(#664));
#666=FACE_BOUND('',#665,.T.);
#667=ADVANCED_FACE('',(#663,#666),#652,.F.);
#668=CARTESIAN_POINT('',(0.570000000000000,0.374999999999999,0.0));
#669=DIRECTION('',(0.0,-1.0,0.0));
#670=DIRECTION('',(0.0,0.0,-1.0));
#671=AXIS2_PLACEMENT_3D('',#668,#669,#670);
#672=PLANE('',#671);
#673=ORIENTED_EDGE('',*,*,#660,.T.);
#674=EDGE_LOOP('',(#673));
#675=FACE_OUTER_BOUND('',#674,.T.);
#676=CARTESIAN_POINT('',(0.540000000000000,0.374999999999999,0.0));
#677=VERTEX_POINT('',#676);
#678=CARTESIAN_POINT('',(0.0,0.374999999999999,0.0));
#679=DIRECTION('',(0.0,-1.0,0.0));
#680=DIRECTION('',(1.0,0.0,0.0));
#681=AXIS2_PLACEMENT_3D('',#678,#679,#680);
#682=CIRCLE('',#681,0.540000000000000);
#683=EDGE_CURVE('',#677,#677,#682,.T.);
#684=ORIENTED_EDGE('',*,*,#683,.F.);
#685=EDGE_LOOP('',(#684));
#686=FACE_BOUND('',#685,.T.);
#687=ADVANCED_FACE('',(#675,#686),#672,.T.);
#688=CARTESIAN_POINT('',(0.0,0.187499999999999,0.0));
#689=DIRECTION('',(0.0,-1.0,0.0));
#690=DIRECTION('',(1.0,0.0,0.0));
#691=AXIS2_PLACEMENT_3D('',#688,#689,#690);
#692=CYLINDRICAL_SURFACE('',#691,0.540000000000000);
#693=CARTESIAN_POINT('',(0.540000000000000,0.0,0.0));
#694=VERTEX_POINT('',#693);
#695=CARTESIAN_POINT('',(0.0,0.0,0.0));
#696=DIRECTION('',(0.0,-1.0,0.0));
#697=DIRECTION('',(1.0,0.0,0.0));
#698=AXIS2_PLACEMENT_3D('',#695,#696,#697);
#699=CIRCLE('',#698,0.540000000000000);
#700=EDGE_CURVE('',#694,#694,#699,.T.);
#701=ORIENTED_EDGE('',*,*,#700,.F.);
#702=EDGE_LOOP('',(#701));
#703=FACE_OUTER_BOUND('',#702,.T.);
#704=ORIENTED_EDGE('',*,*,#683,.T.);
#705=EDGE_LOOP('',(#704));
#706=FACE_BOUND('',#705,.T.);
#707=ADVANCED_FACE('',(#703,#706),#692,.T.);
#708=CARTESIAN_POINT('',(0.270000000000000,0.0,0.0));
#709=DIRECTION('',(0.0,-1.0,0.0));
#710=DIRECTION('',(0.0,0.0,-1.0));
#711=AXIS2_PLACEMENT_3D('',#708,#709,#710);
#712=PLANE('',#711);
#713=ORIENTED_EDGE('',*,*,#700,.T.);
#714=EDGE_LOOP('',(#713));
#715=FACE_OUTER_BOUND('',#714,.T.);
#716=ORIENTED_EDGE('',*,*,#583,.T.);
#717=EDGE_LOOP('',(#716));
#718=FACE_BOUND('',#717,.T.);
#719=ADVANCED_FACE('',(#715,#718),#712,.T.);
#720=CLOSED_SHELL('',(#587,#607,#627,#647,#667,#687,#707,#719));
#721=MANIFOLD_SOLID_BREP('',#720);
#722=STYLED_ITEM('',(#287),#721);
#723=ADVANCED_BREP_SHAPE_REPRESENTATION('ABSR',(#721),#507);
#724=SHAPE_REPRESENTATION_RELATIONSHIP('SRR','None',#723,#512);
#725=AXIS2_PLACEMENT_3D('',#726,#727,#728);
#726=CARTESIAN_POINT('',(2.814502E-017,10.500000000000012,1.487240E-017));
#727=DIRECTION('',(0.0,0.0,1.0));
#728=DIRECTION('',(1.0,0.0,0.0));
#729=NEXT_ASSEMBLY_USAGE_OCCURRENCE('AC-DC-100_R1:1','AC-DC-100_R1:1','AC-DC-100_R1:1',#12,#477,'AC-DC-100_R1:1');
#730=PRODUCT_DEFINITION_SHAPE('AC-DC-100_R1:1','AC-DC-100_R1:1',#729);
#731=ITEM_DEFINED_TRANSFORMATION('AC-DC-100_R1:1','AC-DC-100_R1:1',#508,#725);
#735=(REPRESENTATION_RELATIONSHIP('AC-DC-100_R1:1','AC-DC-100_R1:1',#512,#47)REPRESENTATION_RELATIONSHIP_WITH_TRANSFORMATION(#731)SHAPE_REPRESENTATION_RELATIONSHIP());
#736=CONTEXT_DEPENDENT_SHAPE_REPRESENTATION(#735,#730);
ENDSEC;
END-ISO-10303-21;
